I had a bad day again
没有
                A
Had a bad day again
                            F#m
She said i would not understand
                          D         Dm
She left anote and said, "I´m sorry i
                  A
Had a bad day again"

                                          A
She spilled her coffee, broke her shoelace
                             F#m
Smeared the lipstick on her face
                             D     Dm
Slammed the door and said, "I´m soory i
                 A
Had a bad day again"

            D             B      C#m
And she swears there´s nothing wrong
             D               B    F#m
I hear her playing that some old song
             D               C#m
She puts me off and puts me on


                A
Had a bad day again
                            F#m
She said i would not understand
                          D         Dm
She left anote and said, "I´m sorry i
                  A
Had a bad day again"


No...

Solo     A   F#m    D   C#m  B   A


|------------------------------------------------------------------------
|------------------------------------------------------------------------
|-----------6-----------------------------------------------------------
|-6--8---------8--6--8-----------------------------------------------
|----------------------------7------------------------------------------
|------------------------------------------------------------------------



|------------------------------------------------------------------------
|------------------------------------------------------------------------
|-----------6-----------------------------------------------------------
|-6--8---------8--6-~~----------------------------------------------
|------------------------------------------------------------------------
|------------------------------------------------------------------------



|------------------------------------------------------------------------
|------------------------------------------------------------------------
|-----------6-----------------------------------------------------------
|-6--8---------8--6--6~----------------------------------------------
|-----------------------------7-7--7~---------------------------------
|------------------------------------------------------------------------




|------------------------------------------------------------------------
|--------------------------9--------------------------------------------
|-----------6-----------------------------------------------------------
|-6--8---------8--6---------------------------------------------------
|------------------------------------------------------------------------
|------------------------------------------------------------------------




            D             B      C#m
And she swears there´s nothing wrong
             D               B    F#m
I hear her playing that some old song
             D               C#m
She puts me off and puts me on

                         A
Oh And Had a bad day again
                            F#m
She said i would not understand
                          D         Dm
She left anote and said, "I´m sorry i
                  A
Had a bad day again"


She left anote and said, "I´m sorry i
                  A
Had a bad day again"


A              F#m             D
Ahh...ahah...ahh.ahah...alright

   C#m       B
Oooh...ooh...ooh

            A
Ohhh...ohoh.


Solo Final:


|------------------------------------------------------------------------
|------------------------------------------------------------------------
|-----------6-----------------------------------------------------------
|-6--8---------8--6--8-----------------------------------------------
|----------------------------7------------------------------------------
|------------------------------------------------------------------------



|------------------------------------------------------------------------
|------------------------------------------------------------------------
|-----------6-----------------------------------------------------------
|-6--8---------8--6--8-----------------------------------------------
|----------------------------7------------------------------------------
|------------------------------------------------------------------------



|------------------------------------------------------------------------
|------------------------------------------------------------------------
|-----------6-----------------------------------------------------------
|-6--8---------8--6--6~----------------------------------------------
|-----------------------------7-7--7~---------------------------------
|------------------------------------------------------------------------
|/kryptonite-hexian-3-doors-down|Kryptonite|3 Doors Down|/tmp/3-doors-down.jpg?15 |/here-without-you-hexian-3-doors-down|Here without you|3 Doors Down|/tmp/3-doors-down.jpg?15 |/heaven-hexian-3-doors-down|Heaven|3 Doors Down|/tmp/3-doors-down.jpg?15 |/where-my-christmas-lives-hexian-3-doors-down|Where my christmas lives|3 Doors Down|/tmp/3-doors-down.jpg?15 |/away-from-the-sun-hexian-3-doors-down|Away from the sun|3 Doors Down|/tmp/3-doors-down.jpg?15 |/landing-in-london-hexian-3-doors-down|Landing in london|3 Doors Down|/tmp/3-doors-down.jpg?15 |/love-me-when-im-gone-hexian-3-doors-down|Love me when i'm gone|3 Doors Down|/tmp/3-doors-down.jpg?15 |/citizen-soldier-hexian-3-doors-down|Citizen (soldier)|3 Doors Down|/tmp/3-doors-down.jpg?15 |/your-arms-feel-like-home-hexian-3-doors-down|Your arms feel like home|3 Doors Down|/tmp/3-doors-down.jpg?15 |/be-like-that-hexian-3-doors-down|Be like that|3 Doors Down|/tmp/3-doors-down.jpg?15 8
|/hexian-coldplay|Coldplay||/tmp/coldplay.jpg?9 |/hexian-creed|Creed||/tmp/creed.jpg?25 |/hexian-nickelback|Nickelback||/tmp/nickelback.jpg?33 |/hexian-ed-sheeran|Ed sheeran||/tmp/ed-sheeran.jpg?9 |/hexian-maroon-5|Maroon 5||/tmp/maroon-5.jpg?17 |/hexian-aerosmith|Aerosmith||/tmp/aerosmith.jpg?45 |/hexian-linkin-park|Linkin park||/tmp/linkin-park.png?73 |/hexian-red-hot-chili-peppers|Red hot chili peppers||/tmp/red-hot-chili-peppers.jpg?25 |/hexian-oasis|Oasis||/tmp/oasis.jpg?32 |/hexian-bruno-mars|Bruno mars||/tmp/bruno-mars.jpg?30 5